  0
SECTION
  2
HEADER
  9
$ACADVER
  1
AC1015
  9
$ACADMAINTVER
 70
     6
  9
$DWGCODEPAGE
  3
ANSI_1252
  9
$INSBASE
 10
0.0
 20
0.0
 30
0.0
  9
$EXTMIN
 10
-24.0
 20
-12.3609052646
 30
0.0
  9
$EXTMAX
 10
24.0
 20
16.6467417681
 30
0.0
  9
$LIMMIN
 10
0.0
 20
0.0
  9
$LIMMAX
 10
420.0
 20
297.0
  9
$ORTHOMODE
 70
     0
  9
$REGENMODE
 70
     1
  9
$FILLMODE
 70
     1
  9
$QTEXTMODE
 70
     0
  9
$MIRRTEXT
 70
     1
  9
$LTSCALE
 40
1.0
  9
$ATTMODE
 70
     1
  9
$TEXTSIZE
 40
3.5
  9
$TRACEWID
 40
1.0
  9
$TEXTSTYLE
  7
Standard
  9
$CLAYER
  8
0
  9
$CELTYPE
  6
ByLayer
  9
$CECOLOR
 62
   256
  9
$CELTSCALE
 40
1.0
  9
$DISPSILH
 70
     0
  9
$DIMSCALE
 40
1.0
  9
$DIMASZ
 40
3.302
  9
$DIMEXO
 40
1.0
  9
$DIMDLI
 40
3.75
  9
$DIMRND
 40
0.0
  9
$DIMDLE
 40
0.0
  9
$DIMEXE
 40
1.0
  9
$DIMTP
 40
0.0
  9
$DIMTM
 40
0.0
  9
$DIMTXT
 40
3.5
  9
$DIMCEN
 40
2.5
  9
$DIMTSZ
 40
0.0
  9
$DIMTOL
 70
     0
  9
$DIMLIM
 70
     0
  9
$DIMTIH
 70
     1
  9
$DIMTOH
 70
     1
  9
$DIMSE1
 70
     0
  9
$DIMSE2
 70
     0
  9
$DIMTAD
 70
     1
  9
$DIMZIN
 70
     0
  9
$DIMBLK
  1

  9
$DIMASO
 70
     1
  9
$DIMSHO
 70
     1
  9
$DIMPOST
  1

  9
$DIMAPOST
  1

  9
$DIMALT
 70
     0
  9
$DIMALTD
 70
     3
  9
$DIMALTF
 40
0.0393700787
  9
$DIMLFAC
 40
1.0
  9
$DIMTOFL
 70
     1
  9
$DIMTVP
 40
0.0
  9
$DIMTIX
 70
     0
  9
$DIMSOXD
 70
     0
  9
$DIMSAH
 70
     0
  9
$DIMBLK1
  1

  9
$DIMBLK2
  1

  9
$DIMSTYLE
  2
ISO-25
  9
$DIMCLRD
 70
     0
  9
$DIMCLRE
 70
     0
  9
$DIMCLRT
 70
     0
  9
$DIMTFAC
 40
1.0
  9
$DIMGAP
 40
1.524
  9
$DIMJUST
 70
     0
  9
$DIMSD1
 70
     0
  9
$DIMSD2
 70
     0
  9
$DIMTOLJ
 70
     0
  9
$DIMTZIN
 70
     0
  9
$DIMALTZ
 70
     0
  9
$DIMALTTZ
 70
     0
  9
$DIMUPT
 70
     0
  9
$DIMDEC
 70
     2
  9
$DIMTDEC
 70
     2
  9
$DIMALTU
 70
     2
  9
$DIMALTTD
 70
     3
  9
$DIMTXSTY
  7
Standard
  9
$DIMAUNIT
 70
     0
  9
$DIMADEC
 70
     2
  9
$DIMALTRND
 40
0.0
  9
$DIMAZIN
 70
     0
  9
$DIMDSEP
 70
    44
  9
$DIMATFIT
 70
     3
  9
$DIMFRAC
 70
     0
  9
$DIMLDRBLK
  1

  9
$DIMLUNIT
 70
     2
  9
$DIMLWD
 70
    -2
  9
$DIMLWE
 70
    -2
  9
$DIMTMOVE
 70
     0
  9
$LUNITS
 70
     2
  9
$LUPREC
 70
     2
  9
$SKETCHINC
 40
1.0
  9
$FILLETRAD
 40
10.0
  9
$AUNITS
 70
     0
  9
$AUPREC
 70
     2
  9
$MENU
  1
.
  9
$ELEVATION
 40
0.0
  9
$PELEVATION
 40
0.0
  9
$THICKNESS
 40
0.0
  9
$LIMCHECK
 70
     0
  9
$CHAMFERA
 40
0.0
  9
$CHAMFERB
 40
0.0
  9
$CHAMFERC
 40
0.0
  9
$CHAMFERD
 40
0.0
  9
$SKPOLY
 70
     0
  9
$TDCREATE
 40
2457496.958741285
  9
$TDUCREATE
 40
2457496.875407951
  9
$TDUPDATE
 40
2457496.958767257
  9
$TDUUPDATE
 40
2457496.875433924
  9
$TDINDWG
 40
0.0000000116
  9
$TDUSRTIMER
 40
0.0000000116
  9
$USRTIMER
 70
     1
  9
$ANGBASE
 50
0.0
  9
$ANGDIR
 70
     0
  9
$PDMODE
 70
     0
  9
$PDSIZE
 40
-1.0
  9
$PLINEWID
 40
0.0
  9
$SPLFRAME
 70
     0
  9
$SPLINETYPE
 70
     6
  9
$SPLINESEGS
 70
     8
  9
$HANDSEED
  5
88
  9
$SURFTAB1
 70
     6
  9
$SURFTAB2
 70
     6
  9
$SURFTYPE
 70
     6
  9
$SURFU
 70
     6
  9
$SURFV
 70
     6
  9
$UCSBASE
  2

  9
$UCSNAME
  2

  9
$UCSORG
 10
0.0
 20
0.0
 30
0.0
  9
$UCSXDIR
 10
1.0
 20
0.0
 30
0.0
  9
$UCSYDIR
 10
0.0
 20
1.0
 30
0.0
  9
$UCSORTHOREF
  2

  9
$UCSORTHOVIEW
 70
     0
  9
$UCSORGTOP
 10
0.0
 20
0.0
 30
0.0
  9
$UCSORGBOTTOM
 10
0.0
 20
0.0
 30
0.0
  9
$UCSORGLEFT
 10
0.0
 20
0.0
 30
0.0
  9
$UCSORGRIGHT
 10
0.0
 20
0.0
 30
0.0
  9
$UCSORGFRONT
 10
0.0
 20
0.0
 30
0.0
  9
$UCSORGBACK
 10
0.0
 20
0.0
 30
0.0
  9
$PUCSBASE
  2

  9
$PUCSNAME
  2

  9
$PUCSORG
 10
0.0
 20
0.0
 30
0.0
  9
$PUCSXDIR
 10
1.0
 20
0.0
 30
0.0
  9
$PUCSYDIR
 10
0.0
 20
1.0
 30
0.0
  9
$PUCSORTHOREF
  2

  9
$PUCSORTHOVIEW
 70
     0
  9
$PUCSORGTOP
 10
0.0
 20
0.0
 30
0.0
  9
$PUCSORGBOTTOM
 10
0.0
 20
0.0
 30
0.0
  9
$PUCSORGLEFT
 10
0.0
 20
0.0
 30
0.0
  9
$PUCSORGRIGHT
 10
0.0
 20
0.0
 30
0.0
  9
$PUCSORGFRONT
 10
0.0
 20
0.0
 30
0.0
  9
$PUCSORGBACK
 10
0.0
 20
0.0
 30
0.0
  9
$USERI1
 70
     0
  9
$USERI2
 70
     0
  9
$USERI3
 70
     0
  9
$USERI4
 70
     0
  9
$USERI5
 70
     0
  9
$USERR1
 40
0.0
  9
$USERR2
 40
0.0
  9
$USERR3
 40
0.0
  9
$USERR4
 40
0.0
  9
$USERR5
 40
0.0
  9
$WORLDVIEW
 70
     1
  9
$SHADEDGE
 70
     3
  9
$SHADEDIF
 70
    70
  9
$TILEMODE
 70
     1
  9
$MAXACTVP
 70
    64
  9
$PINSBASE
 10
0.0
 20
0.0
 30
0.0
  9
$PLIMCHECK
 70
     0
  9
$PEXTMIN
 10
-24.0
 20
-24.0
 30
0.0
  9
$PEXTMAX
 10
24.0
 20
24.0
 30
0.0
  9
$PLIMMIN
 10
-28.9230769231
 20
-25.8461538462
  9
$PLIMMAX
 10
44.1846153846
 20
25.8461538462
  9
$UNITMODE
 70
     0
  9
$VISRETAIN
 70
     1
  9
$PLINEGEN
 70
     0
  9
$PSLTSCALE
 70
     1
  9
$TREEDEPTH
 70
  3020
  9
$CMLSTYLE
  2
Standard
  9
$CMLJUST
 70
     0
  9
$CMLSCALE
 40
20.0
  9
$PROXYGRAPHICS
 70
     1
  9
$MEASUREMENT
 70
     1
  9
$CELWEIGHT
370
    -1
  9
$ENDCAPS
280
     0
  9
$JOINSTYLE
280
     0
  9
$LWDISPLAY
290
     1
  9
$INSUNITS
 70
     4
  9
$HYPERLINKBASE
  1

  9
$STYLESHEET
  1

  9
$XEDIT
290
     1
  9
$CEPSNTYPE
380
     0
  9
$PSTYLEMODE
290
     1
  9
$FINGERPRINTGUID
  2
{A763C2B1-4181-4F8A-82C6-04BA4C39FEED}
  9
$VERSIONGUID
  2
{FAEB1C32-E019-11D5-929B-00C0DF256EC4}
  9
$EXTNAMES
290
     1
  9
$PSVPSCALE
 40
0.0
  9
$OLESTARTUP
290
     0
  0
ENDSEC
  0
SECTION
  2
CLASSES
  0
CLASS
  1
ACDBDICTIONARYWDFLT
  2
AcDbDictionaryWithDefault
  3
ObjectDBX Classes
 90
        0
280
     0
281
     0
  0
CLASS
  1
VISUALSTYLE
  2
AcDbVisualStyle
  3
ObjectDBX Classes
 90
     4095
280
     0
281
     0
  0
CLASS
  1
MATERIAL
  2
AcDbMaterial
  3
ObjectDBX Classes
 90
     1153
280
     0
281
     0
  0
CLASS
  1
SCALE
  2
AcDbScale
  3
ObjectDBX Classes
 90
     1153
280
     0
281
     0
  0
CLASS
  1
SUN
  2
AcDbSun
  3
SCENEOE
 90
     1153
280
     0
281
     0
  0
CLASS
  1
ACDBPLACEHOLDER
  2
AcDbPlaceHolder
  3
ObjectDBX Classes
 90
        0
280
     0
281
     0
  0
CLASS
  1
LAYOUT
  2
AcDbLayout
  3
ObjectDBX Classes
 90
        0
280
     0
281
     0
  0
ENDSEC
  0
SECTION
  2
TABLES
  0
TABLE
  2
VPORT
  5
8
330
0
100
AcDbSymbolTable
 70
     1
  0
VPORT
  5
29
330
8
100
AcDbSymbolTableRecord
100
AcDbViewportTableRecord
  2
*Active
 70
     0
 10
0.0
 20
0.0
 11
1.0
 21
1.0
 12
0.0
 22
2.1429182518
 13
0.0
 23
0.0
 14
10.0
 24
10.0
 15
10.0
 25
10.0
 16
0.0
 26
0.0
 36
1.0
 17
0.0
 27
0.0
 37
0.0
 40
29.5877999733
 41
1.6547360751
 42
50.0
 43
0.0
 44
0.0
 50
0.0
 51
0.0
 71
     0
 72
   100
 73
     1
 74
     3
 75
     0
 76
     0
 77
     0
 78
     0
281
     0
 65
     1
110
0.0
120
0.0
130
0.0
111
1.0
121
0.0
131
0.0
112
0.0
122
1.0
132
0.0
 79
     0
146
0.0
  0
ENDTAB
  0
TABLE
  2
LTYPE
  5
5
330
0
100
AcDbSymbolTable
 70
     6
  0
LTYPE
  5
14
330
5
100
AcDbSymbolTableRecord
100
AcDbLinetypeTableRecord
  2
ByBlock
 70
     0
  3

 72
    65
 73
     0
 40
0.0
  0
LTYPE
  5
15
330
5
100
AcDbSymbolTableRecord
100
AcDbLinetypeTableRecord
  2
ByLayer
 70
     0
  3

 72
    65
 73
     0
 40
0.0
  0
LTYPE
  5
16
330
5
100
AcDbSymbolTableRecord
100
AcDbLinetypeTableRecord
  2
Continuous
 70
     0
  3
Solid line
 72
    65
 73
     0
 40
0.0
  0
LTYPE
  5
6A
330
5
100
AcDbSymbolTableRecord
100
AcDbLinetypeTableRecord
  2
HIDDEN
 70
     0
  3
Hidden __ __ __ __ __ __ __ __ __ __ __ __ __ __
 72
    65
 73
     2
 40
1.905
 49
1.27
 74
     0
 49
-0.635
 74
     0
  0
LTYPE
  5
6B
330
5
100
AcDbSymbolTableRecord
100
AcDbLinetypeTableRecord
  2
PHANTOM
 70
     0
  3
Phantom ______  __  __  ______  __  __  ______
 72
    65
 73
     6
 40
12.7
 49
6.35
 74
     0
 49
-1.27
 74
     0
 49
1.27
 74
     0
 49
-1.27
 74
     0
 49
1.27
 74
     0
 49
-1.27
 74
     0
  0
LTYPE
  5
6C
330
5
100
AcDbSymbolTableRecord
100
AcDbLinetypeTableRecord
  2
CENTER
 70
     0
  3
Center ____ _ ____ _ ____ _ ____ _ ____ _ ____
 72
    65
 73
     4
 40
10.16
 49
6.35
 74
     0
 49
-1.27
 74
     0
 49
1.27
 74
     0
 49
-1.27
 74
     0
  0
LTYPE
  5
6D
330
5
100
AcDbSymbolTableRecord
100
AcDbLinetypeTableRecord
  2
CENTERX2
 70
     0
  3
Center (2x) ________  __  ________  __  _____
 72
    65
 73
     4
 40
20.32
 49
12.7
 74
     0
 49
-2.54
 74
     0
 49
2.54
 74
     0
 49
-2.54
 74
     0
  0
LTYPE
  5
6E
330
5
100
AcDbSymbolTableRecord
100
AcDbLinetypeTableRecord
  2
DOT2
 70
     0
  3
Dot (.5x) ........................................
 72
    65
 73
     2
 40
0.635
 49
0.0
 74
     0
 49
-0.635
 74
     0
  0
ENDTAB
  0
TABLE
  2
LAYER
  5
2
330
0
100
AcDbSymbolTable
 70
     1
  0
LAYER
  5
10
330
2
100
AcDbSymbolTableRecord
100
AcDbLayerTableRecord
  2
0
 70
     0
 62
     7
  6
Continuous
370
    -3
390
F
  0
ENDTAB
  0
TABLE
  2
STYLE
  5
3
330
0
100
AcDbSymbolTable
 70
     1
  0
STYLE
  5
11
330
3
100
AcDbSymbolTableRecord
100
AcDbTextStyleTableRecord
  2
Standard
 70
     0
 40
0.0
 41
1.0
 50
0.0
 71
     0
 42
3.5
  3
txt
  4

  0
ENDTAB
  0
TABLE
  2
VIEW
  5
6
330
0
100
AcDbSymbolTable
 70
     0
  0
ENDTAB
  0
TABLE
  2
UCS
  5
7
330
0
100
AcDbSymbolTable
 70
     0
  0
ENDTAB
  0
TABLE
  2
APPID
  5
9
330
0
100
AcDbSymbolTable
 70
     1
  0
APPID
  5
12
330
9
100
AcDbSymbolTableRecord
100
AcDbRegAppTableRecord
  2
ACAD
 70
     0
  0
ENDTAB
  0
TABLE
  2
DIMSTYLE
  5
A
330
0
100
AcDbSymbolTable
 70
     1
100
AcDbDimStyleTable
  0
DIMSTYLE
105
27
330
A
100
AcDbSymbolTableRecord
100
AcDbDimStyleTableRecord
  2
ISO-25
 70
     0
 41
2.5
 42
0.625
 43
3.75
 44
1.25
 73
     0
 74
     0
 77
     1
 78
     8
140
2.5
141
2.5
143
0.0393700787
147
0.625
171
     3
172
     1
178
     0
271
     2
272
     2
274
     3
278
    44
283
     0
284
     8
340
11
  0
ENDTAB
  0
TABLE
  2
BLOCK_RECORD
  5
1
330
0
100
AcDbSymbolTable
 70
     1
  0
BLOCK_RECORD
  5
1F
330
1
100
AcDbSymbolTableRecord
100
AcDbBlockTableRecord
  2
*Model_Space
340
22
  0
BLOCK_RECORD
  5
1B
330
1
100
AcDbSymbolTableRecord
100
AcDbBlockTableRecord
  2
*Paper_Space
340
1E
  0
BLOCK_RECORD
  5
23
330
1
100
AcDbSymbolTableRecord
100
AcDbBlockTableRecord
  2
*Paper_Space0
340
26
  0
ENDTAB
  0
ENDSEC
  0
SECTION
  2
BLOCKS
  0
BLOCK
  5
20
330
1F
100
AcDbEntity
  8
0
100
AcDbBlockBegin
  2
*Model_Space
 70
     0
 10
0.0
 20
0.0
 30
0.0
  3
*Model_Space
  1
*Model_Space
  0
ENDBLK
  5
21
330
1F
100
AcDbEntity
  8
0
100
AcDbBlockEnd
  0
BLOCK
  5
1C
330
1B
100
AcDbEntity
 67
     1
  8
0
100
AcDbBlockBegin
  2
*Paper_Space
 70
     0
 10
0.0
 20
0.0
 30
0.0
  3
*Paper_Space
  1
*Paper_Space
  0
ENDBLK
  5
1D
330
1B
100
AcDbEntity
 67
     1
  8
0
100
AcDbBlockEnd
  0
BLOCK
  5
24
330
23
100
AcDbEntity
  8
0
100
AcDbBlockBegin
  2
*Paper_Space0
 70
     0
 10
0.0
 20
0.0
 30
0.0
  3
*Paper_Space0
  1
*Paper_Space0
  0
LINE
  5
80
330
23
100
AcDbEntity
  8
0
  6
Continuous
 62
     7
370
    15
100
AcDbLine
 10
24.0
 20
0.0
 30
0.0
 11
24.0
 21
5.0
 31
0.0
  0
LINE
  5
81
330
23
100
AcDbEntity
  8
0
  6
Continuous
 62
     7
370
    15
100
AcDbLine
 10
-24.0
 20
5.0
 30
0.0
 11
-24.0
 21
0.0
 31
0.0
  0
LINE
  5
82
330
23
100
AcDbEntity
  8
0
  6
Continuous
 62
     7
370
    15
100
AcDbLine
 10
-24.0
 20
0.0
 30
0.0
 11
24.0
 21
0.0
 31
0.0
  0
LINE
  5
83
330
23
100
AcDbEntity
  8
0
  6
Continuous
 62
     7
370
    15
100
AcDbLine
 10
-24.0
 20
5.0
 30
0.0
 11
24.0
 21
5.0
 31
0.0
  0
VIEWPORT
  5
86
330
23
100
AcDbEntity
  8
0
100
AcDbViewport
 10
0.0
 20
0.0
 30
0.0
 40
205.6
 41
156.0
 68
     1
 69
     1
 12
0.0
 22
2.1429182518
 13
0.0
 23
0.0
 14
10.0
 24
10.0
 15
10.0
 25
10.0
 16
0.0
 26
0.0
 36
1.0
 17
0.0
 27
0.0
 37
0.0
 42
50.0
 43
0.0
 44
0.0
 45
37.1486381323
 50
0.0
 51
0.0
 72
   100
 90
   557152
  1

281
     0
 71
     1
 74
     0
110
0.0
120
0.0
130
0.0
111
1.0
121
0.0
131
0.0
112
0.0
122
1.0
132
0.0
 79
     0
146
0.0
  0
ENDBLK
  5
25
330
23
100
AcDbEntity
  8
0
100
AcDbBlockEnd
  0
ENDSEC
  0
SECTION
  2
ENTITIES
  0
LWPOLYLINE
  5
71
330
1F
100
AcDbEntity
  8
0
  6
Continuous
 62
     7
370
    15
100
AcDbPolyline
 90
      128
 70
   128
 43
0.0
 10
-8.9838862369
 20
-4.4827118775
 10
-8.1309417023
 20
-4.7008073358
 10
-7.2580993907
 20
-4.8969109708
 10
-6.3674952938
 20
-5.0705428839
 10
-5.4613088688
 20
-5.2212781688
 10
-4.5417577059
 20
-5.348747951
 10
-3.6110921008
 20
-5.4526402905
 10
-2.6715895482
 20
-5.5327009455
 10
-1.7255491683
 20
-5.588733994
 10
-0.7752860804
 20
-5.6206023137
 10
0.1768742624
 20
-5.6282279177
 10
1.1286017642
 20
-5.6115921447
 10
2.0775673884
 20
-5.5707357053
 10
3.0214488571
 20
-5.505758582
 10
3.9579363341
 20
-5.4168197847
 10
4.8847380777
 20
-5.3041369616
 10
5.7995860487
 20
-5.1679858665
 10
6.7002414607
 20
-5.0086996838
 10
7.5845002591
 20
-4.8266682135
 10
8.4501985145
 20
-4.6223369173
 10
9.295217718
 20
-4.3962058279
 10
10.1174899662
 20
-4.148828326
 10
10.9150030211
 20
-3.8808097859
 10
11.6858052345
 20
-3.5928060939
 10
12.4280103243
 20
-3.2855220431
 10
13.1398019902
 20
-2.9597096093
 10
13.8194383588
 20
-2.61616611
 10
14.465256246
 20
-2.2557322537
 10
15.0756752273
 20
-1.8792900825
 10
15.6492015049
 20
-1.4877608134
 10
16.1844315642
 20
-1.0821025842
 10
16.6800556073
 20
-0.6633081085
 10
17.1348607593
 20
-0.2324022466
 10
17.5477340357
 20
0.2095605026
 10
17.9176650664
 20
0.6614985822
 10
18.2437485682
 20
1.1223060241
 10
18.5251865601
 20
1.5908551552
 10
18.7612903162
 20
2.0659993573
 10
18.9514820511
 20
2.5465758728
 10
19.0952963336
 20
3.0314086505
 10
19.1923812262
 20
3.5193112235
 10
19.2424991458
 20
4.0090896122
 10
19.2455274456
 20
4.4995452469
 10
19.2014587146
 20
4.9894779005
 10
19.1104007966
 20
5.4776886257
 10
18.9725765255
 20
5.9629826891
 10
18.7883231803
 20
6.4441724947
 10
18.55809166
 20
6.9200804904
 10
18.2824453795
 20
7.3895420497
 10
17.9620588916
 20
7.8514083214
 10
17.5977162356
 20
8.3045490414
 10
17.1903090192
 20
8.7478552984
 10
16.7408342359
 20
9.1802422477
 10
16.250391826
 20
9.600651766
 10
15.7201819842
 20
10.0080550407
 10
15.1515022229
 20
10.4014550878
 10
14.5457441966
 20
10.7798891914
 10
13.9043902968
 20
11.1424312599
 10
13.229010024
 20
11.488194092
 10
12.5212561469
 20
11.8163315482
 10
11.7828606578
 20
12.1260406211
 10
11.0156305341
 20
12.4165634007
 10
10.2214433167
 20
12.6871889292
 10
9.4022425146
 20
12.9372549404
 10
8.5600328495
 20
13.166149481
 10
7.6968753497
 20
13.3733124077
 10
6.8148823061
 20
13.558236758
 10
5.9162121035
 20
13.7204699911
 10
5.0030639385
 20
13.859615095
 10
4.0776724376
 20
13.9753315585
 10
3.1423021891
 20
14.0673362039
 10
2.1992422005
 20
14.1354038804
 10
1.2508002977
 20
14.1793680151
 10
0.2992974769
 20
14.1991210202
 10
-0.6529377749
 20
14.194614557
 10
-1.6035751785
 20
14.1658596534
 10
-2.550288365
 20
14.1129266776
 10
-3.4907605685
 20
14.0359451654
 10
-4.4226902959
 20
13.9351035035
 10
-5.3437969591
 20
13.8106484682
 10
-6.2518264556
 20
13.662884622
 10
-7.1445566852
 20
13.4921735677
 10
-8.0198029873
 20
13.2989330639
 10
-8.8754234877
 20
13.0836360025
 10
-9.7093243395
 20
12.8468092515
 10
-10.5194648476
 20
12.5890323655
 10
-11.3038624625
 20
12.310936168
 10
-12.0605976317
 20
12.0132012067
 10
-12.7878184976
 20
11.6965560891
 10
-13.4837454286
 20
11.3617756989
 10
-14.1466753752
 20
11.0096792998
 10
-14.7749860365
 20
10.6411285306
 10
-15.3671398311
 20
10.2570252968
 10
-15.9216876594
 20
9.8583095635
 10
-16.43727245
 20
9.4459570548
 10
-16.9126324806
 20
9.0209768664
 10
-17.3466044653
 20
8.5844089961
 10
-17.7381264022
 20
8.1373217986
 10
-18.0862401713
 20
7.6808093712
 10
-18.39009388
 20
7.2159888762
 10
-18.6489439473
 20
6.7439978074
 10
-18.8621569238
 20
6.265991206
 10
-19.0292110414
 20
5.7831388341
 10
-19.149697491
 20
5.2966223126
 10
-19.2233214218
 20
4.8076322288
 10
-19.2499026638
 20
4.3173652235
 10
-19.2293761683
 20
3.8270210621
 10
-19.161792167
 20
3.3377996989
 10
-19.0473160492
 20
2.8508983407
 10
-18.8862279574
 20
2.3675085166
 10
-18.6789221009
 20
1.8888131626
 10
-18.425905792
 20
1.4159837263
 10
-18.1277982039
 20
0.9501773007
 10
-17.785328856
 20
0.4925337921
 10
-17.399335828
 20
0.0441731309
 10
-16.9707637096
 20
-0.3938074692
 10
-16.5006612886
 20
-0.8203361964
 10
-15.9901789844
 20
-1.2343692633
 10
-15.4405660327
 20
-1.6348934616
 10
-14.8531674286
 20
-2.0209286416
 10
-14.2294206348
 20
-2.3915301105
 10
-13.5708520642
 20
-2.7457909443
 10
-12.8790733445
 20
-3.0828442075
 10
-12.1557773743
 20
-3.4018650741
 10
-11.4027341798
 20
-3.7020728468
 10
-10.621786584
 20
-3.9827328668
 10
-9.8148456965
 20
-4.2431583119
 10
-8.9838862369
 20
-4.4827118775
  0
LWPOLYLINE
  5
72
330
1F
100
AcDbEntity
  8
0
  6
Continuous
 62
     7
370
    15
100
AcDbPolyline
 90
      143
 70
   128
 43
0.0
 10
-11.2006893343
 20
-6.6463796598
 10
-10.2508278344
 20
-6.8908520076
 10
-9.2808998576
 20
-7.1134454628
 10
-8.2928040836
 20
-7.3137242882
 10
-7.2884747561
 20
-7.4912964286
 10
-6.2698778969
 20
-7.6458142783
 10
-5.2390074574
 20
-7.7769753613
 10
-4.1978814148
 20
-7.8845229235
 10
-3.1485378221
 20
-7.9682464357
 10
-2.0930308188
 20
-8.0279820051
 10
-1.0334266094
 20
-8.0636126964
 10
0.0282005811
 20
-8.0750687611
 10
1.0897725676
 20
-8.0623277732
 10
2.1492112732
 20
-8.0254146739
 10
3.2044427968
 20
-7.9644017222
 10
4.2534014732
 20
-7.879408354
 10
5.2940339164
 20
-7.7706009476
 10
6.3243030396
 20
-7.6381924988
 10
7.3421920426
 20
-7.4824422033
 10
8.3457083599
 20
-7.3036549495
 10
9.3328875612
 20
-7.102180722
 10
10.3017971968
 20
-6.878413916
 10
11.2505405806
 20
-6.6327925655
 10
12.1772605029
 20
-6.3657974859
 10
13.080142866
 20
-6.0779513325
 10
13.9574202351
 20
-5.7698175778
 10
14.8073752987
 20
-5.441999408
 10
15.6283442297
 20
-5.0951385426
 10
16.4187199431
 20
-4.7299139779
 10
17.1769552411
 20
-4.3470406584
 10
17.9015658426
 20
-3.9472680764
 10
18.5911332883
 20
-3.5313788055
 10
19.2443077175
 20
-3.1001869686
 10
19.8598105107
 20
-2.6545366439
 10
20.4364367922
 20
-2.1953002129
 10
20.973057789
 20
-1.7233766523
 10
21.4686230403
 20
-1.2396897748
 10
21.9221624538
 20
-0.7451864202
 10
22.3327882048
 20
-0.2408346019
 10
22.6996964741
 20
0.2723783876
 10
23.0221690217
 20
0.7934479099
 10
23.2995745922
 20
1.3213539469
 10
23.5313701514
 20
1.8550630976
 10
23.7171019484
 20
2.3935306015
 10
23.8564064046
 20
2.935702383
 10
23.949010825
 20
3.4805171155
 10
23.994733932
 20
4.0269082985
 10
23.9934862206
 20
4.5738063456
 10
23.9452701332
 20
5.1201406782
 10
23.850180055
 20
5.6648418213
 10
23.7084021293
 20
6.2068434966
 10
23.5202138931
 20
6.7450847106
 10
23.2859837338
 20
7.2785118307
 10
23.0061701677
 20
7.8060806483
 10
22.6813209432
 20
8.3267584227
 10
22.3120719678
 20
8.8395259026
 10
21.8991460638
 20
9.3433793218
 10
21.4433515529
 20
9.8373323633
 10
20.9455806744
 20
10.320418091
 10
20.4068078382
 20
10.7916908419
 10
19.8280877172
 20
11.2502280774
 10
19.2105531835
 20
11.6951321893
 10
18.5554130898
 20
12.125532257
 10
17.8639499035
 20
12.5405857521
 10
17.1375171965
 20
12.9394801879
 10
16.3775369948
 20
13.3214347099
 10
15.5854969953
 20
13.685701624
 10
14.7629476535
 20
14.0315678607
 10
13.9114991484
 20
14.3583563706
 10
13.0328182305
 20
14.6654274499
 10
12.1286249589
 20
14.9521799925
 10
11.2006893343
 20
15.2180526668
 10
10.2508278344
 20
15.4625250146
 10
9.2808998576
 20
15.6851184698
 10
8.2928040836
 20
15.8853972952
 10
7.2884747561
 20
16.0629694356
 10
6.2698778969
 20
16.2174872853
 10
5.2390074574
 20
16.3486483683
 10
4.1978814148
 20
16.4561959306
 10
3.1485378221
 20
16.5399194427
 10
2.0930308188
 20
16.5996550121
 10
1.0334266094
 20
16.6352857035
 10
-0.0282005811
 20
16.6467417681
 10
-1.0897725676
 20
16.6340007802
 10
-2.1492112732
 20
16.5970876809
 10
-3.2044427968
 20
16.5360747292
 10
-4.2534014732
 20
16.451081361
 10
-5.2940339164
 20
16.3422739547
 10
-6.3243030396
 20
16.2098655058
 10
-7.3421920426
 20
16.0541152103
 10
-8.3457083599
 20
15.8753279565
 10
-9.3328875612
 20
15.673853729
 10
-10.3017971968
 20
15.450086923
 10
-11.2505405806
 20
15.2044655725
 10
-12.1772605029
 20
14.9374704929
 10
-13.080142866
 20
14.6496243396
 10
-13.9574202351
 20
14.3414905848
 10
-14.8073752987
 20
14.013672415
 10
-15.6283442297
 20
13.6668115496
 10
-16.4187199431
 20
13.301586985
 10
-17.1769552411
 20
12.9187136654
 10
-17.9015658426
 20
12.5189410834
 10
-18.5911332883
 20
12.1030518126
 10
-19.2443077175
 20
11.6718599756
 10
-19.8598105107
 20
11.2262096509
 10
-20.4364367922
 20
10.7669732199
 10
-20.973057789
 20
10.2950496593
 10
-21.4686230403
 20
9.8113627819
 10
-21.9221624538
 20
9.3168594272
 10
-22.3327882048
 20
8.8125076089
 10
-22.6996964741
 20
8.2992946194
 10
-23.0221690217
 20
7.7782250971
 10
-23.2995745922
 20
7.2503190601
 10
-23.5313701514
 20
6.7166099094
 10
-23.7171019484
 20
6.1781424055
 10
-23.8564064046
 20
5.635970624
 10
-23.949010825
 20
5.0911558915
 10
-23.994733932
 20
4.5447647085
 10
-23.9934862206
 20
3.9978666614
 10
-23.9452701332
 20
3.4515323288
 10
-23.850180055
 20
2.9068311858
 10
-23.7084021293
 20
2.3648295104
 10
-23.5202138931
 20
1.8265882965
 10
-23.2859837338
 20
1.2931611764
 10
-23.0061701677
 20
0.7655923587
 10
-22.6813209432
 20
0.2449145844
 10
-22.3120719678
 20
-0.2678528956
 10
-21.8991460638
 20
-0.7717063147
 10
-21.4433515529
 20
-1.2656593563
 10
-20.9455806744
 20
-1.748745084
 10
-20.4068078382
 20
-2.2200178349
 10
-19.8280877172
 20
-2.6785550704
 10
-19.2105531835
 20
-3.1234591823
 10
-18.5554130898
 20
-3.55385925
 10
-17.8639499035
 20
-3.9689127451
 10
-17.1375171965
 20
-4.3678071809
 10
-16.3775369948
 20
-4.7497617028
 10
-15.5854969953
 20
-5.114028617
 10
-14.7629476535
 20
-5.4598948537
 10
-13.9114991484
 20
-5.7866833636
 10
-13.0328182305
 20
-6.0937544429
 10
-12.1286249589
 20
-6.3805069855
 10
-11.2006893343
 20
-6.6463796598
  0
LWPOLYLINE
  5
73
330
1F
100
AcDbEntity
  8
0
  6
Continuous
 62
     7
370
    15
100
AcDbPolyline
 90
       48
 70
   128
 43
0.0
 10
-11.2006893343
 20
-10.9322161633
 10
-10.2508278344
 20
-11.1766885111
 10
-9.2808998576
 20
-11.3992819663
 10
-8.2928040836
 20
-11.5995607917
 10
-7.2884747561
 20
-11.7771329321
 10
-6.2698778969
 20
-11.9316507818
 10
-5.2390074574
 20
-12.0628118648
 10
-4.1978814148
 20
-12.170359427
 10
-3.1485378221
 20
-12.2540829392
 10
-2.0930308188
 20
-12.3138185086
 10
-1.0334266094
 20
-12.3494492
 10
0.0282005811
 20
-12.3609052646
 10
1.0897725676
 20
-12.3481642767
 10
2.1492112732
 20
-12.3112511774
 10
3.2044427968
 20
-12.2502382257
 10
4.2534014732
 20
-12.1652448575
 10
5.2940339164
 20
-12.0564374511
 10
6.3243030396
 20
-11.9240290023
 10
7.3421920426
 20
-11.7682787068
 10
8.3457083599
 20
-11.589491453
 10
9.3328875612
 20
-11.3880172255
 10
10.3017971968
 20
-11.1642504195
 10
11.2505405806
 20
-10.918629069
 10
12.1772605029
 20
-10.6516339894
 10
13.080142866
 20
-10.363787836
 10
13.9574202351
 20
-10.0556540813
 10
14.8073752987
 20
-9.7278359115
 10
15.6283442297
 20
-9.3809750461
 10
16.4187199431
 20
-9.0157504815
 10
17.1769552411
 20
-8.6328771619
 10
17.9015658426
 20
-8.2331045799
 10
18.5911332883
 20
-7.817215309
 10
19.2443077175
 20
-7.3860234721
 10
19.8598105107
 20
-6.9403731474
 10
20.4364367922
 20
-6.4811367164
 10
20.973057789
 20
-6.0092131558
 10
21.4686230403
 20
-5.5255262783
 10
21.9221624538
 20
-5.0310229237
 10
22.3327882048
 20
-4.5266711054
 10
22.6996964741
 20
-4.0134581159
 10
23.0221690217
 20
-3.4923885936
 10
23.2995745922
 20
-2.9644825566
 10
23.5313701514
 20
-2.4307734059
 10
23.7171019484
 20
-1.892305902
 10
23.8564064046
 20
-1.3501341205
 10
23.949010825
 20
-0.805319388
 10
23.994733932
 20
-0.258928205
 10
24.0
 20
0.0
  0
LWPOLYLINE
  5
74
330
1F
100
AcDbEntity
  8
0
  6
Continuous
 62
     7
370
    15
100
AcDbPolyline
 90
       26
 70
   128
 43
0.0
 10
-24.0
 20
0.0
 10
-23.9934862206
 20
-0.2879698421
 10
-23.9452701332
 20
-0.8343041747
 10
-23.850180055
 20
-1.3790053177
 10
-23.7084021293
 20
-1.9210069931
 10
-23.5202138931
 20
-2.459248207
 10
-23.2859837338
 20
-2.9926753272
 10
-23.0061701677
 20
-3.5202441448
 10
-22.6813209432
 20
-4.0409219192
 10
-22.3120719678
 20
-4.5536893991
 10
-21.8991460638
 20
-5.0575428183
 10
-21.4433515529
 20
-5.5514958598
 10
-20.9455806744
 20
-6.0345815875
 10
-20.4068078382
 20
-6.5058543384
 10
-19.8280877172
 20
-6.9643915739
 10
-19.2105531835
 20
-7.4092956858
 10
-18.5554130898
 20
-7.8396957535
 10
-17.8639499035
 20
-8.2547492486
 10
-17.1375171965
 20
-8.6536436844
 10
-16.3775369948
 20
-9.0355982064
 10
-15.5854969953
 20
-9.3998651205
 10
-14.7629476535
 20
-9.7457313572
 10
-13.9114991484
 20
-10.0725198671
 10
-13.0328182305
 20
-10.3795909464
 10
-12.1286249589
 20
-10.666343489
 10
-11.2006893343
 20
-10.9322161633
  0
LWPOLYLINE
  5
75
330
1F
100
AcDbEntity
  8
0
  6
Continuous
 62
     7
370
    15
100
AcDbPolyline
 90
       57
 70
   128
 43
0.0
 10
18.7949750274
 20
2.1429182518
 10
18.7883231803
 20
2.1583359912
 10
18.55809166
 20
2.6342439869
 10
18.2824453795
 20
3.1037055462
 10
17.9620588916
 20
3.5655718179
 10
17.5977162356
 20
4.0187125379
 10
17.1903090192
 20
4.4620187949
 10
16.7408342359
 20
4.8944057442
 10
16.250391826
 20
5.3148152625
 10
15.7201819842
 20
5.7222185372
 10
15.1515022229
 20
6.1156185843
 10
14.5457441966
 20
6.4940526879
 10
13.9043902968
 20
6.8565947564
 10
13.229010024
 20
7.2023575885
 10
12.5212561469
 20
7.5304950447
 10
11.7828606578
 20
7.8402041176
 10
11.0156305341
 20
8.1307268972
 10
10.2214433167
 20
8.4013524257
 10
9.4022425146
 20
8.6514184369
 10
8.5600328495
 20
8.8803129775
 10
7.6968753497
 20
9.0874759041
 10
6.8148823061
 20
9.2724002545
 10
5.9162121035
 20
9.4346334876
 10
5.0030639385
 20
9.5737785915
 10
4.0776724376
 20
9.689495055
 10
3.1423021891
 20
9.7814997004
 10
2.1992422005
 20
9.8495673769
 10
1.2508002977
 20
9.8935315116
 10
0.2992974769
 20
9.9132845167
 10
-0.6529377749
 20
9.9087780535
 10
-1.6035751785
 20
9.8800231499
 10
-2.550288365
 20
9.8270901741
 10
-3.4907605685
 20
9.7501086619
 10
-4.4226902959
 20
9.6492669999
 10
-5.3437969591
 20
9.5248119647
 10
-6.2518264556
 20
9.3770481185
 10
-7.1445566852
 20
9.2063370642
 10
-8.0198029873
 20
9.0130965604
 10
-8.8754234877
 20
8.797799499
 10
-9.7093243395
 20
8.560972748
 10
-10.5194648476
 20
8.303195862
 10
-11.3038624625
 20
8.0250996644
 10
-12.0605976317
 20
7.7273647032
 10
-12.7878184976
 20
7.4107195856
 10
-13.4837454286
 20
7.0759391954
 10
-14.1466753752
 20
6.7238427963
 10
-14.7749860365
 20
6.3552920271
 10
-15.3671398311
 20
5.9711887933
 10
-15.9216876594
 20
5.57247306
 10
-16.43727245
 20
5.1601205513
 10
-16.9126324806
 20
4.7351403629
 10
-17.3466044653
 20
4.2985724926
 10
-17.7381264022
 20
3.8514852951
 10
-18.0862401713
 20
3.3949728676
 10
-18.39009388
 20
2.9301523727
 10
-18.6489439473
 20
2.4581613039
 10
-18.7949750274
 20
2.1429182518
  0
LINE
  5
76
330
1F
100
AcDbEntity
  8
0
  6
Continuous
 62
     7
370
    15
100
AcDbLine
 10
24.0
 20
0.0
 30
0.0
 11
24.0
 21
4.2858365035
 31
0.0
  0
LINE
  5
77
330
1F
100
AcDbEntity
  8
0
  6
Continuous
 62
     7
370
    15
100
AcDbLine
 10
-24.0
 20
4.2858365035
 30
0.0
 11
-24.0
 21
0.0
 31
0.0
  0
CIRCLE
  5
78
330
1B
100
AcDbEntity
 67
     1
  8
0
  6
Continuous
 62
     7
370
    15
100
AcDbCircle
 10
0.0
 20
0.0
 30
0.0
 40
19.25000000000001
  0
CIRCLE
  5
79
330
1B
100
AcDbEntity
 67
     1
  8
0
  6
Continuous
 62
     7
370
    15
100
AcDbCircle
 10
0.0
 20
0.0
 30
0.0
 40
24.00000000000003
  0
VIEWPORT
  5
84
330
1B
100
AcDbEntity
 67
     1
  8
0
100
AcDbViewport
 10
0.0
 20
0.0
 30
0.0
 40
205.6
 41
156.0
 68
     1
 69
     1
 12
0.0
 22
2.1429182518
 13
0.0
 23
0.0
 14
10.0
 24
10.0
 15
10.0
 25
10.0
 16
0.0
 26
0.0
 36
1.0
 17
0.0
 27
0.0
 37
0.0
 42
50.0
 43
0.0
 44
0.0
 45
37.1486381323
 50
0.0
 51
0.0
 72
   100
 90
   557152
  1

281
     0
 71
     1
 74
     0
110
0.0
120
0.0
130
0.0
111
1.0
121
0.0
131
0.0
112
0.0
122
1.0
132
0.0
 79
     0
146
0.0
  0
ENDSEC
  0
SECTION
  2
OBJECTS
  0
DICTIONARY
  5
C
330
0
100
AcDbDictionary
281
     1
  3
ACAD_GROUP
350
D
  3
ACAD_LAYOUT
350
1A
  3
ACAD_MLINESTYLE
350
17
  3
ACAD_PLOTSETTINGS
350
19
  3
ACAD_PLOTSTYLENAME
350
E
  3
ACAD_SCALELIST
350
47
  0
DICTIONARY
  5
D
102
{ACAD_REACTORS
330
C
102
}
330
C
100
AcDbDictionary
281
     1
  0
DICTIONARY
  5
1A
102
{ACAD_REACTORS
330
C
102
}
330
C
100
AcDbDictionary
281
     1
  3
_Dessus
350
1E
  3
_Face
350
26
  3
Model
350
22
  0
DICTIONARY
  5
17
102
{ACAD_REACTORS
330
C
102
}
330
C
100
AcDbDictionary
281
     1
  3
Standard
350
18
  0
DICTIONARY
  5
19
102
{ACAD_REACTORS
330
C
102
}
330
C
100
AcDbDictionary
281
     1
  0
ACDBDICTIONARYWDFLT
  5
E
102
{ACAD_REACTORS
330
C
102
}
330
C
100
AcDbDictionary
281
     1
  3
Normal
350
F
100
AcDbDictionaryWithDefault
340
F
  0
DICTIONARY
  5
47
102
{ACAD_REACTORS
330
C
102
}
330
C
100
AcDbDictionary
281
     1
  3
A0
350
48
  3
A1
350
49
  3
A2
350
4A
  3
A3
350
4B
  3
A4
350
4C
  3
A5
350
4D
  3
A6
350
4E
  3
A7
350
4F
  3
A8
350
50
  3
A9
350
51
  3
B0
350
52
  3
B1
350
53
  3
B2
350
54
  3
B3
350
55
  3
B4
350
56
  3
B5
350
57
  3
B6
350
58
  3
B7
350
59
  3
B8
350
5A
  3
B9
350
5B
  3
C0
350
5C
  3
C1
350
5D
  3
C2
350
5E
  3
C3
350
5F
  3
C4
350
60
  3
C5
350
61
  3
C6
350
62
  3
C7
350
63
  3
C8
350
64
  3
C9
350
65
  3
D0
350
66
  3
D1
350
67
  3
D2
350
68
  0
LAYOUT
  5
1E
102
{ACAD_REACTORS
330
1A
102
}
330
1A
100
AcDbPlotSettings
  1

  2
none_device
  4
ISO_A4_(210.00_x_297.00_MM)
  6

 40
7.5
 41
20.0
 42
7.5
 43
20.0
 44
210.0
 45
297.0
 46
0.0
 47
0.0
 48
0.0
 49
0.0
140
0.0
141
0.0
142
1.0
143
0.2461538462
 70
   688
 72
     1
 73
     1
 74
     1
  7

 75
     0
147
4.0625
148
24.0
149
24.0
100
AcDbLayout
  1
_Dessus
 70
     1
 71
     1
 10
-28.9230769231
 20
-25.8461538462
 11
44.1846153846
 21
25.8461538462
 12
0.0
 22
0.0
 32
0.0
 14
-24.0
 24
-24.0
 34
0.0
 15
24.0
 25
24.0
 35
0.0
146
0.0
 13
0.0
 23
0.0
 33
0.0
 16
1.0
 26
0.0
 36
0.0
 17
0.0
 27
1.0
 37
0.0
 76
     0
330
1B
331
84
  0
LAYOUT
  5
26
102
{ACAD_REACTORS
330
1A
102
}
330
1A
100
AcDbPlotSettings
  1

  2
none_device
  4
ISO_A4_(210.00_x_297.00_MM)
  6

 40
7.5
 41
20.0
 42
7.5
 43
20.0
 44
210.0
 45
297.0
 46
0.0
 47
0.0
 48
0.0
 49
0.0
140
0.0
141
0.0
142
1.0
143
0.2461538462
 70
   688
 72
     1
 73
     1
 74
     1
  7

 75
     0
147
4.0625
148
24.0
149
24.0
100
AcDbLayout
  1
_Face
 70
     1
 71
     2
 10
0.0
 20
0.0
 11
0.0
 21
0.0
 12
0.0
 22
0.0
 32
0.0
 14
0.0
 24
0.0
 34
0.0
 15
0.0
 25
0.0
 35
0.0
146
0.0
 13
0.0
 23
0.0
 33
0.0
 16
1.0
 26
0.0
 36
0.0
 17
0.0
 27
1.0
 37
0.0
 76
     0
330
23
331
86
  0
LAYOUT
  5
22
102
{ACAD_REACTORS
330
1A
102
}
330
1A
100
AcDbPlotSettings
  1

  2
none_device
  4
ANSI_A_(11.00_x_8.50_Inches)
  6

 40
6.35
 41
19.05
 42
6.35000508
 43
19.05000254
 44
279.4
 45
215.9
 46
133.34999746
 47
76.5511644395
 48
0.0
 49
0.0
140
0.0
141
0.0
142
0.226875
143
1.0
 70
  1696
 72
     0
 73
     0
 74
     0
  7

 75
     0
147
0.0179189148
148
-1300.4909072572
149
0.0
100
AcDbLayout
  1
Model
 70
     1
 71
     0
 10
0.0
 20
0.0
 11
420.0
 21
297.0
 12
0.0
 22
0.0
 32
0.0
 14
-24.0
 24
-12.3609052646
 34
0.0
 15
24.0
 25
16.6467417681
 35
0.0
146
0.0
 13
0.0
 23
0.0
 33
0.0
 16
1.0
 26
0.0
 36
0.0
 17
0.0
 27
1.0
 37
0.0
 76
     0
330
1F
331
29
  0
MLINESTYLE
  5
18
102
{ACAD_REACTORS
330
17
102
}
330
17
100
AcDbMlineStyle
  2
Standard
 70
     0
  3

 62
   256
 51
90.0
 52
90.0
 71
     2
 49
0.5
 62
   256
  6
BYLAYER
 49
-0.5
 62
   256
  6
BYLAYER
  0
ACDBPLACEHOLDER
  5
F
102
{ACAD_REACTORS
330
E
102
}
330
E
  0
SCALE
  5
48
102
{ACAD_REACTORS
330
47
102
}
330
47
100
AcDbScale
 70
     0
300
1:1
140
1.0
141
1.0
290
     1
  0
SCALE
  5
49
102
{ACAD_REACTORS
330
47
102
}
330
47
100
AcDbScale
 70
     0
300
1:2
140
1.0
141
2.0
290
     0
  0
SCALE
  5
4A
102
{ACAD_REACTORS
330
47
102
}
330
47
100
AcDbScale
 70
     0
300
1:4
140
1.0
141
4.0
290
     0
  0
SCALE
  5
4B
102
{ACAD_REACTORS
330
47
102
}
330
47
100
AcDbScale
 70
     0
300
1:5
140
1.0
141
5.0
290
     0
  0
SCALE
  5
4C
102
{ACAD_REACTORS
330
47
102
}
330
47
100
AcDbScale
 70
     0
300
1:8
140
1.0
141
8.0
290
     0
  0
SCALE
  5
4D
102
{ACAD_REACTORS
330
47
102
}
330
47
100
AcDbScale
 70
     0
300
1:10
140
1.0
141
10.0
290
     0
  0
SCALE
  5
4E
102
{ACAD_REACTORS
330
47
102
}
330
47
100
AcDbScale
 70
     0
300
1:16
140
1.0
141
16.0
290
     0
  0
SCALE
  5
4F
102
{ACAD_REACTORS
330
47
102
}
330
47
100
AcDbScale
 70
     0
300
1:20
140
1.0
141
20.0
290
     0
  0
SCALE
  5
50
102
{ACAD_REACTORS
330
47
102
}
330
47
100
AcDbScale
 70
     0
300
1:30
140
1.0
141
30.0
290
     0
  0
SCALE
  5
51
102
{ACAD_REACTORS
330
47
102
}
330
47
100
AcDbScale
 70
     0
300
1:40
140
1.0
141
40.0
290
     0
  0
SCALE
  5
52
102
{ACAD_REACTORS
330
47
102
}
330
47
100
AcDbScale
 70
     0
300
1:50
140
1.0
141
50.0
290
     0
  0
SCALE
  5
53
102
{ACAD_REACTORS
330
47
102
}
330
47
100
AcDbScale
 70
     0
300
1:100
140
1.0
141
100.0
290
     0
  0
SCALE
  5
54
102
{ACAD_REACTORS
330
47
102
}
330
47
100
AcDbScale
 70
     0
300
2:1
140
2.0
141
1.0
290
     0
  0
SCALE
  5
55
102
{ACAD_REACTORS
330
47
102
}
330
47
100
AcDbScale
 70
     0
300
4:1
140
4.0
141
1.0
290
     0
  0
SCALE
  5
56
102
{ACAD_REACTORS
330
47
102
}
330
47
100
AcDbScale
 70
     0
300
8:1
140
8.0
141
1.0
290
     0
  0
SCALE
  5
57
102
{ACAD_REACTORS
330
47
102
}
330
47
100
AcDbScale
 70
     0
300
10:1
140
10.0
141
1.0
290
     0
  0
SCALE
  5
58
102
{ACAD_REACTORS
330
47
102
}
330
47
100
AcDbScale
 70
     0
300
100:1
140
100.0
141
1.0
290
     0
  0
SCALE
  5
59
102
{ACAD_REACTORS
330
47
102
}
330
47
100
AcDbScale
 70
     0
300
1/128" = 1'-0"
140
0.0078125
141
12.0
290
     0
  0
SCALE
  5
5A
102
{ACAD_REACTORS
330
47
102
}
330
47
100
AcDbScale
 70
     0
300
1/64" = 1'-0"
140
0.015625
141
12.0
290
     0
  0
SCALE
  5
5B
102
{ACAD_REACTORS
330
47
102
}
330
47
100
AcDbScale
 70
     0
300
1/32" = 1'-0"
140
0.03125
141
12.0
290
     0
  0
SCALE
  5
5C
102
{ACAD_REACTORS
330
47
102
}
330
47
100
AcDbScale
 70
     0
300
1/16" = 1'-0"
140
0.0625
141
12.0
290
     0
  0
SCALE
  5
5D
102
{ACAD_REACTORS
330
47
102
}
330
47
100
AcDbScale
 70
     0
300
3/32" = 1'-0"
140
0.09375
141
12.0
290
     0
  0
SCALE
  5
5E
102
{ACAD_REACTORS
330
47
102
}
330
47
100
AcDbScale
 70
     0
300
1/8" = 1'-0"
140
0.125
141
12.0
290
     0
  0
SCALE
  5
5F
102
{ACAD_REACTORS
330
47
102
}
330
47
100
AcDbScale
 70
     0
300
3/16" = 1'-0"
140
0.1875
141
12.0
290
     0
  0
SCALE
  5
60
102
{ACAD_REACTORS
330
47
102
}
330
47
100
AcDbScale
 70
     0
300
1/4" = 1'-0"
140
0.25
141
12.0
290
     0
  0
SCALE
  5
61
102
{ACAD_REACTORS
330
47
102
}
330
47
100
AcDbScale
 70
     0
300
3/8" = 1'-0"
140
0.375
141
12.0
290
     0
  0
SCALE
  5
62
102
{ACAD_REACTORS
330
47
102
}
330
47
100
AcDbScale
 70
     0
300
1/2" = 1'-0"
140
0.5
141
12.0
290
     0
  0
SCALE
  5
63
102
{ACAD_REACTORS
330
47
102
}
330
47
100
AcDbScale
 70
     0
300
3/4" = 1'-0"
140
0.75
141
12.0
290
     0
  0
SCALE
  5
64
102
{ACAD_REACTORS
330
47
102
}
330
47
100
AcDbScale
 70
     0
300
1" = 1'-0"
140
1.0
141
12.0
290
     0
  0
SCALE
  5
65
102
{ACAD_REACTORS
330
47
102
}
330
47
100
AcDbScale
 70
     0
300
1-1/2" = 1'-0"
140
1.5
141
12.0
290
     0
  0
SCALE
  5
66
102
{ACAD_REACTORS
330
47
102
}
330
47
100
AcDbScale
 70
     0
300
3" = 1'-0"
140
3.0
141
12.0
290
     0
  0
SCALE
  5
67
102
{ACAD_REACTORS
330
47
102
}
330
47
100
AcDbScale
 70
     0
300
6" = 1'-0"
140
6.0
141
12.0
290
     0
  0
SCALE
  5
68
102
{ACAD_REACTORS
330
47
102
}
330
47
100
AcDbScale
 70
     0
300
1'-0" = 1'-0"
140
12.0
141
12.0
290
     0
  0
ENDSEC
  0
EOF
